  0
SECTION
  2
HEADER
  9
$ACADVER
  1
AC1009
  9
$INSBASE
 10
0.0
 20
0.0
 30
0.0
  9
$EXTMIN
 10
-204.99999999999989
 20
-30.0
 30
-0.00000001
  9
$EXTMAX
 10
30.0
 20
100.0
 30
0.00000001
  9
$LIMMIN
 10
-8.2830083091725957
 20
-5.8660607271250589
  9
$LIMMAX
 10
1.673970312484838
 20
8.2109086457177831
  9
$ORTHOMODE
 70
     0
  9
$REGENMODE
 70
     1
  9
$FILLMODE
 70
     1
  9
$QTEXTMODE
 70
     0
  9
$MIRRTEXT
 70
     1
  9
$DRAGMODE
 70
     2
  9
$LTSCALE
 40
20.0
  9
$OSMODE
 70
     0
  9
$ATTMODE
 70
     1
  9
$TEXTSIZE
 40
0.2407005307411144
  9
$TRACEWID
 40
0.05
  9
$TEXTSTYLE
  7
STANDARD
  9
$CLAYER
  8
0
  9
$CELTYPE
  6
BYLAYER
  9
$CECOLOR
 62
     7
  9
$DIMSCALE
 40
1.0
  9
$DIMASZ
 40
0.18
  9
$DIMEXO
 40
0.0625
  9
$DIMDLI
 40
0.38
  9
$DIMRND
 40
0.0
  9
$DIMDLE
 40
0.0
  9
$DIMEXE
 40
0.18
  9
$DIMTP
 40
0.0
  9
$DIMTM
 40
0.0
  9
$DIMTXT
 40
0.1895279769615074
  9
$DIMCEN
 40
0.09
  9
$DIMTSZ
 40
0.0
  9
$DIMTOL
 70
     0
  9
$DIMLIM
 70
     0
  9
$DIMTIH
 70
     1
  9
$DIMTOH
 70
     1
  9
$DIMSE1
 70
     0
  9
$DIMSE2
 70
     0
  9
$DIMTAD
 70
     0
  9
$DIMZIN
 70
     0
  9
$DIMBLK
  1

  9
$DIMASO
 70
     1
  9
$DIMSHO
 70
     1
  9
$DIMPOST
  1

  9
$DIMAPOST
  1

  9
$DIMALT
 70
     0
  9
$DIMALTD
 70
     2
  9
$DIMALTF
 40
25.399999999999999
  9
$DIMLFAC
 40
1.0
  9
$DIMTOFL
 70
     0
  9
$DIMTVP
 40
0.0
  9
$DIMTIX
 70
     0
  9
$DIMSOXD
 70
     0
  9
$DIMSAH
 70
     0
  9
$DIMBLK1
  1

  9
$DIMBLK2
  1

  9
$DIMSTYLE
  2
STANDARD
  9
$DIMCLRD
 70
     0
  9
$DIMCLRE
 70
     0
  9
$DIMCLRT
 70
     0
  9
$DIMTFAC
 40
1.0
  9
$DIMGAP
 40
0.09
  9
$LUNITS
 70
     2
  9
$LUPREC
 70
     4
  9
$SKETCHINC
 40
0.1
  9
$FILLETRAD
 40
4.9999999999999991
  9
$AUNITS
 70
     0
  9
$AUPREC
 70
     0
  9
$MENU
  1
.
  9
$ELEVATION
 40
0.0
  9
$PELEVATION
 40
0.0
  9
$THICKNESS
 40
0.0
  9
$LIMCHECK
 70
     0
  9
$BLIPMODE
 70
     0
  9
$CHAMFERA
 40
254.0
  9
$CHAMFERB
 40
254.0
  9
$SKPOLY
 70
     0
  9
$TDCREATE
 40
2452315.8241329971
  9
$TDUPDATE
 40
2311954.5345548261
  9
$TDINDWG
 40
0.0000008102
  9
$TDUSRTIMER
 40
0.0000008102
  9
$USRTIMER
 70
     1
  9
$ANGBASE
 50
0.0
  9
$ANGDIR
 70
     0
  9
$PDMODE
 70
     0
  9
$PDSIZE
 40
0.0
  9
$PLINEWID
 40
0.0
  9
$COORDS
 70
     0
  9
$SPLFRAME
 70
     0
  9
$SPLINETYPE
 70
     6
  9
$SPLINESEGS
 70
     8
  9
$ATTDIA
 70
     0
  9
$ATTREQ
 70
     1
  9
$HANDLING
 70
 12289
  9
$HANDSEED
  5
159
  9
$SURFTAB1
 70
     6
  9
$SURFTAB2
 70
     6
  9
$SURFTYPE
 70
     6
  9
$SURFU
 70
     6
  9
$SURFV
 70
     6
  9
$UCSNAME
  2

  9
$UCSORG
 10
0.0
 20
0.0
 30
0.0
  9
$UCSXDIR
 10
1.0
 20
0.0
 30
0.0
  9
$UCSYDIR
 10
0.0
 20
1.0
 30
0.0
  9
$PUCSNAME
  2

  9
$PUCSORG
 10
0.0
 20
0.0
 30
0.0
  9
$PUCSXDIR
 10
1.0
 20
0.0
 30
0.0
  9
$PUCSYDIR
 10
0.0
 20
1.0
 30
0.0
  9
$USERI1
 70
     0
  9
$USERI2
 70
     0
  9
$USERI3
 70
     0
  9
$USERI4
 70
     0
  9
$USERI5
 70
     0
  9
$USERR1
 40
0.0
  9
$USERR2
 40
0.0
  9
$USERR3
 40
0.0
  9
$USERR4
 40
0.0
  9
$USERR5
 40
0.0
  9
$WORLDVIEW
 70
     1
  9
$SHADEDGE
 70
     3
  9
$SHADEDIF
 70
    70
  9
$TILEMODE
 70
     1
  9
$MAXACTVP
 70
    64
  9
$PLIMCHECK
 70
     0
  9
$PEXTMIN
 10
1.0000000000000000E+020
 20
1.0000000000000000E+020
 30
1.0000000000000000E+020
  9
$PEXTMAX
 10
-1.0000000000000000E+020
 20
-1.0000000000000000E+020
 30
-1.0000000000000000E+020
  9
$PLIMMIN
 10
0.0
 20
0.0
  9
$PLIMMAX
 10
12.0
 20
9.0
  9
$UNITMODE
 70
     0
  9
$VISRETAIN
 70
     1
  9
$PLINEGEN
 70
     0
  9
$PSLTSCALE
 70
     1
  0
ENDSEC
  0
SECTION
  2
TABLES
  0
TABLE
  2
VPORT
 70
     1
  0
VPORT
  2
*ACTIVE
 70
     0
 10
0.0
 20
0.0
 11
1.0
 21
1.0
 12
-189.99999999999989
 22
20.0
 13
0.0
 23
0.0
 14
1.0
 24
1.0
 15
0.0
 25
0.0
 16
0.0
 26
0.0
 36
1.0
 17
0.0
 27
0.0
 37
0.0
 40
100.0
 41
0.3
 42
50.0
 43
0.0
 44
0.0
 50
0.0
 51
0.0
 71
     0
 72
   100
 73
     1
 74
     1
 75
     0
 76
     0
 77
     0
 78
     0
  0
ENDTAB
  0
TABLE
  2
LTYPE
 70
    48
  0
LTYPE
  2
CONTINUOUS
 70
     0
  3
Solid line
 72
    65
 73
     0
 40
0.0
  0
LTYPE
  2
HIDDEN
 70
     0
  3
_ _ _ _ _ _ _ _ _ _ _ _ _ _ 
 72
    65
 73
     2
 40
9.5249999999999986
 49
6.3499999999999988
 49
-3.1749999999999989
  0
LTYPE
  2
DASHED
 70
     0
  3
__ __ __ __ __ __ __ __ __ 
 72
    65
 73
     2
 40
19.04999999999999
 49
12.699999999999999
 49
-6.3499999999999988
  0
LTYPE
  2
CENTER
 70
     0
  3
____ _ ____ _ ____ _ ____ _ 
 72
    65
 73
     4
 40
50.799999999999997
 49
31.75
 49
-6.3499999999999988
 49
6.3499999999999988
 49
-6.3499999999999988
  0
LTYPE
  2
PHANTOM
 70
     0
  3
_____ _ _ _____ _ _ _____ _ _ 
 72
    65
 73
     6
 40
63.500000000000007
 49
31.75
 49
-6.3499999999999988
 49
6.3499999999999988
 49
-6.3499999999999988
 49
6.3499999999999988
 49
-6.3499999999999988
  0
LTYPE
  2
DOT
 70
     0
  3
...........................
 72
    65
 73
     2
 40
6.3499999999999988
 49
0.0
 49
-6.3499999999999988
  0
LTYPE
  2
DASHDOT
 70
     0
  3
__ . __ . __ . __ . __ . __ . 
 72
    65
 73
     4
 40
25.399999999999999
 49
12.699999999999999
 49
-6.3499999999999988
 49
0.0
 49
-6.3499999999999988
  0
LTYPE
  2
DIVIDE
 70
     0
  3
__ . . __ . . __ . . __ . . 
 72
    65
 73
     6
 40
31.75
 49
12.699999999999999
 49
-6.3499999999999988
 49
0.0
 49
-6.3499999999999988
 49
0.0
 49
-6.3499999999999988
  0
LTYPE
  2
BORDER
 70
     0
  3
__ __ . __ __ . __ __ . __ __ .
 72
    65
 73
     6
 40
44.449999999999989
 49
12.699999999999999
 49
-6.3499999999999988
 49
12.699999999999999
 49
-6.3499999999999988
 49
0.0
 49
-6.3499999999999988
  0
LTYPE
  2
RAND
 70
     0
  3
Rand __ __ . __ __ . __ __ . __
 72
    65
 73
     6
 40
1.75
 49
0.5
 49
-0.25
 49
0.5
 49
-0.25
 49
0.0
 49
-0.25
  0
LTYPE
  2
RAND2
 70
     0
  3
Rand (.5x) __.__.__.__.__.__.__
 72
    65
 73
     6
 40
0.875
 49
0.25
 49
-0.125
 49
0.25
 49
-0.125
 49
0.0
 49
-0.125
  0
LTYPE
  2
RANDX2
 70
     0
  3
Rand (2x) ____  ____  .  ____  
 72
    65
 73
     6
 40
3.5
 49
1.0
 49
-0.5
 49
1.0
 49
-0.5
 49
0.0
 49
-0.5
  0
LTYPE
  2
MITTE
 70
     0
  3
Mitte ____ _ ____ _ ____ _ ____
 72
    65
 73
     4
 40
2.0
 49
1.25
 49
-0.25
 49
0.25
 49
-0.25
  0
LTYPE
  2
MITTE2
 70
     0
  3
Mitte (.5x) ___ _ ___ _ ___ _ _
 72
    65
 73
     4
 40
1.125
 49
0.7500000000000001
 49
-0.125
 49
0.125
 49
-0.125
  0
LTYPE
  2
MITTEX2
 70
     0
  3
Mitte (2x) ________  __  ______
 72
    65
 73
     4
 40
4.0
 49
2.5
 49
-0.5
 49
0.5
 49
-0.5
  0
LTYPE
  2
STRICHPUNKT
 70
     0
  3
Strichpunkt __ . __ . __ . __ .
 72
    65
 73
     4
 40
1.0
 49
0.5
 49
-0.25
 49
0.0
 49
-0.25
  0
LTYPE
  2
STRICHPUNKT2
 70
     0
  3
Strichpunkt (.5x) _._._._._._._
 72
    65
 73
     4
 40
0.5
 49
0.25
 49
-0.125
 49
0.0
 49
-0.125
  0
LTYPE
  2
STRICHPUNKTX2
 70
     0
  3
Strichpunkt (2x) ____  .  ____ 
 72
    65
 73
     4
 40
2.0
 49
1.0
 49
-0.5
 49
0.0
 49
-0.5
  0
LTYPE
  2
STRICHLINIE
 70
     0
  3
Strichlinie __ __ __ __ __ __ _
 72
    65
 73
     2
 40
0.75
 49
0.5
 49
-0.25
  0
LTYPE
  2
STRICHLINIE2
 70
     0
  3
Strichlinie (.5x) _ _ _ _ _ _ _
 72
    65
 73
     2
 40
0.375
 49
0.25
 49
-0.125
  0
LTYPE
  2
STRICHLINIEX2
 70
     0
  3
Strichlinie (2x) ____  ____  __
 72
    65
 73
     2
 40
1.5
 49
1.0
 49
-0.5
  0
LTYPE
  2
GETRENNT
 70
     0
  3
Getrennt ____ . . ____ . . ____
 72
    65
 73
     6
 40
1.25
 49
0.5
 49
-0.25
 49
0.0
 49
-0.25
 49
0.0
 49
-0.25
  0
LTYPE
  2
GETRENNT2
 70
     0
  3
Getrennt (.5x) __..__..__..__..
 72
    65
 73
     6
 40
0.625
 49
0.25
 49
-0.125
 49
0.0
 49
-0.125
 49
0.0
 49
-0.125
  0
LTYPE
  2
GETRENNTX2
 70
     0
  3
Getrennt (2x) ________  .  .  _
 72
    65
 73
     6
 40
2.5
 49
1.0
 49
-0.5
 49
0.0
 49
-0.5
 49
0.0
 49
-0.5
  0
LTYPE
  2
PUNKT
 70
     0
  3
Punkt . . . . . . . . . . . . .
 72
    65
 73
     2
 40
0.25
 49
0.0
 49
-0.25
  0
LTYPE
  2
PUNKT2
 70
     0
  3
Punkt (.5x) ...................
 72
    65
 73
     2
 40
0.125
 49
0.0
 49
-0.125
  0
LTYPE
  2
PUNKTX2
 70
     0
  3
Punkt (2x) .  .  .  .  .  .  . 
 72
    65
 73
     2
 40
0.5
 49
0.0
 49
-0.5
  0
LTYPE
  2
VERDECKT
 70
     0
  3
Verdeckt __ __ __ __ __ __ __ _
 72
    65
 73
     2
 40
0.375
 49
0.25
 49
-0.125
  0
LTYPE
  2
VERDECKT2
 70
     0
  3
Verdeckt (.5x) _ _ _ _ _ _ _ _ 
 72
    65
 73
     2
 40
0.1875
 49
0.125
 49
-0.0625
  0
LTYPE
  2
VERDECKTX2
 70
     0
  3
Verdeckt (2x) ____ ____ ____ __
 72
    65
 73
     2
 40
0.75
 49
0.5
 49
-0.25
  0
LTYPE
  2
PHANTOM2
 70
     0
  3
Phantom (.5x) ___ _ _ ___ _ _ _
 72
    65
 73
     6
 40
1.25
 49
0.6250000000000001
 49
-0.125
 49
0.125
 49
-0.125
 49
0.125
 49
-0.125
  0
LTYPE
  2
PHANTOMX2
 70
     0
  3
Phantom (2x) ____________    __
 72
    65
 73
     6
 40
5.0
 49
2.5
 49
-0.5
 49
0.5
 49
-0.5
 49
0.5
 49
-0.5
  0
LTYPE
  2
PUNKTE
 70
     0
  3
Punkte - - - - - - - - - - - - 
 72
    65
 73
     2
 40
0.1
 49
0.05
 49
-0.05
  0
LTYPE
  2
ACAD_ISO02W100
 70
     0
  3
__ __ __ __ __ __ __ __ __ __ _
 72
    65
 73
     2
 40
15.0
 49
12.0
 49
-3.0
  0
LTYPE
  2
ACAD_ISO03W100
 70
     0
  3
__    __    __    __    __    _
 72
    65
 73
     2
 40
30.0
 49
12.0
 49
-18.0
  0
LTYPE
  2
ACAD_ISO04W100
 70
     0
  3
____ . ____ . ____ . ____ . ___
 72
    65
 73
     4
 40
30.5
 49
24.0
 49
-3.0
 49
0.5
 49
-3.0
  0
LTYPE
  2
ACAD_ISO05W100
 70
     0
  3
____ .. ____ .. ____ .. ____ ..
 72
    65
 73
     6
 40
34.0
 49
24.0
 49
-3.0
 49
0.5
 49
-3.0
 49
0.5
 49
-3.0
  0
LTYPE
  2
ACAD_ISO06W100
 70
     0
  3
____ ... ____ ... ____ ... ____
 72
    65
 73
     6
 40
34.0
 49
24.0
 49
-3.0
 49
0.5
 49
-3.0
 49
0.5
 49
-3.0
  0
LTYPE
  2
ACAD_ISO07W100
 70
     0
  3
. . . . . . . . . . . . . . . .
 72
    65
 73
     2
 40
3.5
 49
0.5
 49
-3.0
  0
LTYPE
  2
ACAD_ISO08W100
 70
     0
  3
____ __ ____ __ ____ __ ____ __
 72
    65
 73
     4
 40
36.0
 49
24.0
 49
-3.0
 49
6.0
 49
-3.0
  0
LTYPE
  2
ACAD_ISO09W100
 70
     0
  3
____ __ __ ____ __ __ ____ __ _
 72
    65
 73
     6
 40
45.0
 49
24.0
 49
-3.0
 49
6.0
 49
-3.0
 49
6.0
 49
-3.0
  0
LTYPE
  2
ACAD_ISO10W100
 70
     0
  3
__ . __ . __ . __ . __ . __ . _
 72
    65
 73
     4
 40
18.5
 49
12.0
 49
-3.0
 49
0.5
 49
-3.0
  0
LTYPE
  2
ACAD_ISO11W100
 70
     0
  3
__ __ . __ __ . __ __ . __ __ .
 72
    65
 73
     6
 40
33.5
 49
12.0
 49
-3.0
 49
12.0
 49
-3.0
 49
0.5
 49
-3.0
  0
LTYPE
  2
ACAD_ISO12W100
 70
     0
  3
__ . . __ . . __ . . __ . . __ 
 72
    65
 73
     6
 40
22.0
 49
12.0
 49
-3.0
 49
0.5
 49
-3.0
 49
0.5
 49
-3.0
  0
LTYPE
  2
ACAD_ISO13W100
 70
     0
  3
__ __ . . __ __ . . __ __ . . _
 72
    65
 73
     6
 40
33.5
 49
12.0
 49
-3.0
 49
12.0
 49
-3.0
 49
0.5
 49
-3.0
  0
LTYPE
  2
ACAD_ISO14W100
 70
     0
  3
__ . . . __ . . . __ . . . __ .
 72
    65
 73
     6
 40
22.0
 49
12.0
 49
-3.0
 49
0.5
 49
-3.0
 49
0.5
 49
-3.0
  0
LTYPE
  2
ACAD_ISO15W100
 70
     0
  3
__ __ . . . __ __ . . . __ __ .
 72
    65
 73
     6
 40
33.5
 49
12.0
 49
-3.0
 49
12.0
 49
-3.0
 49
0.5
 49
-3.0
  0
LTYPE
  2
GESTRICHELT
 70
     0
  3

 72
    65
 73
     2
 40
0.75
 49
0.5
 49
-0.25
  0
ENDTAB
  0
TABLE
  2
LAYER
 70
    11
  0
LAYER
  2
0
 70
     0
 62
     7
  6
CONTINUOUS
  0
LAYER
  2
10
 70
     1
 62
     7
  6
CONTINUOUS
  0
LAYER
  2
6
 70
     1
 62
     7
  6
CONTINUOUS
  0
LAYER
  2
7
 70
     1
 62
     7
  6
CONTINUOUS
  0
LAYER
  2
8
 70
     1
 62
     7
  6
CONTINUOUS
  0
LAYER
  2
9
 70
     1
 62
     7
  6
CONTINUOUS
  0
LAYER
  2
KONTUR
 70
     0
 62
     7
  6
CONTINUOUS
  0
LAYER
  2
KOORDINATENSYSTEM
 70
     0
 62
     7
  6
CONTINUOUS
  0
LAYER
  2
MAßLINIEN
 70
     0
 62
     7
  6
CONTINUOUS
  0
LAYER
  2
TEXT
 70
     0
 62
     7
  6
CONTINUOUS
  0
LAYER
  2
UMLAUFKANTEN
 70
     0
 62
     7
  6
CONTINUOUS
  0
ENDTAB
  0
TABLE
  2
STYLE
 70
     6
  0
STYLE
  2
STANDARD
 70
     0
 40
0.0
 41
1.0
 50
0.0
 71
     0
 42
0.2407005307411144
  3
txt
  4

  0
STYLE
  2
ITALIC
 70
     0
 40
0.0
 41
1.0
 50
0.0
 71
     0
 42
0.2407005307411144
  3
ITALIC
  4

  0
STYLE
  2
SIMPLEX
 70
     0
 40
0.0
 41
1.0
 50
0.0
 71
     0
 42
0.2407005307411144
  3
SIMPLEX
  4

  0
STYLE
  2
COMPLEX
 70
     0
 40
0.0
 41
1.0
 50
0.0
 71
     0
 42
0.2407005307411144
  3
COMPLEX
  4

  0
STYLE
  2
TXT
 70
     0
 40
0.0
 41
1.0
 50
0.0
 71
     0
 42
0.2407005307411144
  3
txt
  4

  0
STYLE
  2
ARIAL
 70
     0
 40
0.0
 41
1.0
 50
0.0
 71
     0
 42
0.2407005307411144
  3
txt
  4

  0
ENDTAB
  0
TABLE
  2
VIEW
 70
     0
  0
ENDTAB
  0
TABLE
  2
UCS
 70
     0
  0
ENDTAB
  0
TABLE
  2
APPID
 70
     1
  0
APPID
  2
ACAD
 70
     0
  0
ENDTAB
  0
TABLE
  2
DIMSTYLE
 70
     1
  0
DIMSTYLE
  2
STANDARD
 70
     0
  3

  4

  5

  6

  7

 40
1.0
 41
0.18
 42
0.0625
 43
0.38
 44
0.18
 45
0.0
 46
0.0
 47
0.0
 48
0.0
140
0.18
141
0.09
142
0.0
143
25.399999999999999
144
1.0
145
0.0
146
1.0
147
0.09
 71
     0
 72
     0
 73
     1
 74
     1
 75
     0
 76
     0
 77
     0
 78
     0
170
     0
171
     2
172
     0
173
     0
174
     0
175
     0
176
     0
177
     0
178
     0
  0
ENDTAB
  0
ENDSEC
  0
SECTION
  2
BLOCKS
  0
BLOCK
  8
0
  2
$MODEL_SPACE
 70
     0
 10
0.0
 20
0.0
 30
0.0
  3
$MODEL_SPACE
  1

  0
ENDBLK
  5
21
  8
0
  0
BLOCK
 67
     1
  8
0
  2
$PAPER_SPACE
 70
     0
 10
0.0
 20
0.0
 30
0.0
  3
$PAPER_SPACE
  1

  0
ENDBLK
  5
1D
 67
     1
  8
0
  0
ENDSEC
  0
SECTION
  2
ENTITIES
  0
LINE
  5
64
  8
KOORDINATENSYSTEM
  6
MITTE
 62
     5
 10
-204.99999999999989
 20
0.0
 30
0.0
 11
26.999999999999989
 21
0.0
 31
0.0
  0
TEXT
  5
66
  8
MAßLINIEN
 62
     3
 10
-88.333339999999978
 20
83.499999999999986
 30
0.0
 40
1.9999999999999989
  1
170.0
  7
TXT
  0
LINE
  5
67
  8
MAßLINIEN
 62
     3
 10
-169.99999999999989
 20
82.5
 30
0.0
 11
0.0
 21
82.5
 31
0.0
  0
LINE
  5
68
  8
MAßLINIEN
 62
     3
 10
-169.99999999999989
 20
70.799999999999997
 30
0.0
 11
-169.99999999999989
 21
83.499999999999986
 31
0.0
  0
LINE
  5
69
  8
MAßLINIEN
 62
     3
 10
0.0
 20
83.299999999999997
 30
0.0
 11
0.0
 21
83.499999999999986
 31
0.0
  0
LINE
  5
6A
  8
MAßLINIEN
 62
     3
 10
-168.39999999999989
 20
82.233339999999984
 30
0.0
 11
-169.99999999999989
 21
82.5
 31
0.0
  0
LINE
  5
6B
  8
MAßLINIEN
 62
     3
 10
-168.39999999999989
 20
82.766659999999973
 30
0.0
 11
-169.99999999999989
 21
82.5
 31
0.0
  0
LINE
  5
6C
  8
MAßLINIEN
 62
     3
 10
-1.599999999999999
 20
82.233339999999984
 30
0.0
 11
0.0
 21
82.5
 31
0.0
  0
LINE
  5
6D
  8
MAßLINIEN
 62
     3
 10
-1.599999999999999
 20
82.766659999999973
 30
0.0
 11
0.0
 21
82.5
 31
0.0
  0
ARC
  5
6E
  8
KONTUR
 62
     7
 10
-59.873939999999997
 20
62.073649999999986
 30
0.0
 40
44.0
 50
210.6497
 51
237.55199999999991
  0
TEXT
  5
6F
  8
MAßLINIEN
 62
     3
 10
-83.333339999999978
 20
73.499999999999986
 30
0.0
 40
1.9999999999999989
  1
160.0
  7
TXT
  0
LINE
  5
70
  8
MAßLINIEN
 62
     3
 10
-159.99999999999989
 20
72.499999999999986
 30
0.0
 11
0.0
 21
72.499999999999986
 31
0.0
  0
LINE
  5
71
  8
MAßLINIEN
 62
     3
 10
-159.99999999999989
 20
63.299999999999997
 30
0.0
 11
-159.99999999999989
 21
73.499999999999986
 31
0.0
  0
LINE
  5
72
  8
MAßLINIEN
 62
     3
 10
0.0
 20
65.799999999999997
 30
0.0
 11
0.0
 21
73.499999999999986
 31
0.0
  0
LINE
  5
73
  8
MAßLINIEN
 62
     3
 10
-158.40000000000001
 20
72.233339999999998
 30
0.0
 11
-159.99999999999989
 21
72.499999999999986
 31
0.0
  0
LINE
  5
74
  8
MAßLINIEN
 62
     3
 10
-158.40000000000001
 20
72.766660000000002
 30
0.0
 11
-159.99999999999989
 21
72.499999999999986
 31
0.0
  0
LINE
  5
75
  8
MAßLINIEN
 62
     3
 10
-1.599999999999999
 20
72.233339999999998
 30
0.0
 11
0.0
 21
72.499999999999986
 31
0.0
  0
LINE
  5
76
  8
MAßLINIEN
 62
     3
 10
-1.599999999999999
 20
72.766660000000002
 30
0.0
 11
0.0
 21
72.499999999999986
 31
0.0
  0
TEXT
  5
77
  8
MAßLINIEN
 62
     3
 10
-49.649999999999991
 20
-17.0
 30
0.0
 40
1.9999999999999989
  1
93.3
  7
TXT
  0
LINE
  5
78
  8
MAßLINIEN
 62
     3
 10
-93.299999999999983
 20
-14.0
 30
0.0
 11
0.0
 21
-14.0
 31
0.0
  0
LINE
  5
79
  8
MAßLINIEN
 62
     3
 10
-93.299999999999983
 20
8.6999999999999975
 30
0.0
 11
-93.299999999999983
 21
-15.0
 31
0.0
  0
LINE
  5
7A
  8
MAßLINIEN
 62
     3
 10
0.0
 20
-14.800000000000001
 30
0.0
 11
0.0
 21
-15.0
 31
0.0
  0
LINE
  5
7B
  8
MAßLINIEN
 62
     3
 10
-91.699999999999989
 20
-14.266659999999989
 30
0.0
 11
-93.299999999999983
 21
-14.0
 31
0.0
  0
LINE
  5
7C
  8
MAßLINIEN
 62
     3
 10
-91.699999999999989
 20
-13.73334
 30
0.0
 11
-93.299999999999983
 21
-14.0
 31
0.0
  0
LINE
  5
7D
  8
MAßLINIEN
 62
     3
 10
-1.599999999999999
 20
-14.266659999999989
 30
0.0
 11
0.0
 21
-14.0
 31
0.0
  0
LINE
  5
7E
  8
MAßLINIEN
 62
     3
 10
-1.599999999999999
 20
-13.73334
 30
0.0
 11
0.0
 21
-14.0
 31
0.0
  0
TEXT
  5
7F
  8
MAßLINIEN
 62
     3
 10
-56.449999999999989
 20
-22.0
 30
0.0
 40
1.9999999999999989
  1
105.9
  7
TXT
  0
LINE
  5
80
  8
MAßLINIEN
 62
     3
 10
-105.90000000000001
 20
-19.0
 30
0.0
 11
0.0
 21
-19.0
 31
0.0
  0
LINE
  5
81
  8
MAßLINIEN
 62
     3
 10
-105.90000000000001
 20
34.0
 30
0.0
 11
-105.90000000000001
 21
-19.999999999999989
 31
0.0
  0
LINE
  5
82
  8
MAßLINIEN
 62
     3
 10
0.0
 20
-19.800000000000001
 30
0.0
 11
0.0
 21
-19.999999999999989
 31
0.0
  0
LINE
  5
83
  8
MAßLINIEN
 62
     3
 10
-104.2999999999999
 20
-19.266659999999991
 30
0.0
 11
-105.90000000000001
 21
-19.0
 31
0.0
  0
LINE
  5
84
  8
MAßLINIEN
 62
     3
 10
-104.2999999999999
 20
-18.733339999999991
 30
0.0
 11
-105.90000000000001
 21
-19.0
 31
0.0
  0
LINE
  5
85
  8
MAßLINIEN
 62
     3
 10
-1.599999999999999
 20
-19.266659999999991
 30
0.0
 11
0.0
 21
-19.0
 31
0.0
  0
LINE
  5
86
  8
MAßLINIEN
 62
     3
 10
-1.599999999999999
 20
-18.733339999999991
 30
0.0
 11
0.0
 21
-19.0
 31
0.0
  0
TEXT
  5
87
  8
MAßLINIEN
 62
     3
 10
-78.333340000000007
 20
-26.999999999999989
 30
0.0
 40
1.9999999999999989
  1
150.0
  7
TXT
  0
LINE
  5
88
  8
MAßLINIEN
 62
     3
 10
-150.0
 20
-24.0
 30
0.0
 11
0.0
 21
-24.0
 31
0.0
  0
LINE
  5
89
  8
MAßLINIEN
 62
     3
 10
-150.0
 20
49.200000000000003
 30
0.0
 11
-150.0
 21
-25.0
 31
0.0
  0
LINE
  5
8A
  8
MAßLINIEN
 62
     3
 10
0.0
 20
-24.800000000000001
 30
0.0
 11
0.0
 21
-25.0
 31
0.0
  0
LINE
  5
8B
  8
MAßLINIEN
 62
     3
 10
-148.39999999999989
 20
-24.266660000000002
 30
0.0
 11
-150.0
 21
-24.0
 31
0.0
  0
LINE
  5
8C
  8
MAßLINIEN
 62
     3
 10
-148.39999999999989
 20
-23.733339999999991
 30
0.0
 11
-150.0
 21
-24.0
 31
0.0
  0
LINE
  5
8D
  8
MAßLINIEN
 62
     3
 10
-1.599999999999999
 20
-24.266660000000002
 30
0.0
 11
0.0
 21
-24.0
 31
0.0
  0
LINE
  5
8E
  8
MAßLINIEN
 62
     3
 10
-1.599999999999999
 20
-23.733339999999991
 30
0.0
 11
0.0
 21
-24.0
 31
0.0
  0
TEXT
  5
8F
  8
MAßLINIEN
 62
     3
 10
-101.0
 20
-31.999999999999989
 30
0.0
 40
1.9999999999999989
  1
195.0
  7
TXT
  0
LINE
  5
90
  8
MAßLINIEN
 62
     3
 10
-194.99999999999989
 20
-29.0
 30
0.0
 11
0.0
 21
-29.0
 31
0.0
  0
LINE
  5
91
  8
MAßLINIEN
 62
     3
 10
-194.99999999999989
 20
-0.8
 30
0.0
 11
-194.99999999999989
 21
-30.0
 31
0.0
  0
LINE
  5
92
  8
MAßLINIEN
 62
     3
 10
0.0
 20
-29.800000000000001
 30
0.0
 11
0.0
 21
-30.0
 31
0.0
  0
LINE
  5
93
  8
MAßLINIEN
 62
     3
 10
-193.39999999999989
 20
-29.266659999999991
 30
0.0
 11
-194.99999999999989
 21
-29.0
 31
0.0
  0
LINE
  5
94
  8
MAßLINIEN
 62
     3
 10
-193.39999999999989
 20
-28.733339999999998
 30
0.0
 11
-194.99999999999989
 21
-29.0
 31
0.0
  0
LINE
  5
95
  8
MAßLINIEN
 62
     3
 10
-1.599999999999999
 20
-29.266659999999991
 30
0.0
 11
0.0
 21
-29.0
 31
0.0
  0
LINE
  5
96
  8
MAßLINIEN
 62
     3
 10
-1.599999999999999
 20
-28.733339999999998
 30
0.0
 11
0.0
 21
-29.0
 31
0.0
  0
LINE
  5
97
  8
MAßLINIEN
 62
     3
 10
-93.412220000000005
 20
9.4839260000000003
 30
0.0
 11
-80.795169999999985
 21
22.69462
 31
0.0
  0
LINE
  5
98
  8
MAßLINIEN
 62
     3
 10
-91.028269999999992
 20
30.933479999999989
 30
0.0
 11
-79.881200000000007
 21
44.333199999999998
 31
0.0
  0
TEXT
  5
99
  8
MAßLINIEN
 62
     3
 10
-88.337909999999965
 20
35.796520000000001
 30
0.0
 40
1.9999999999999989
  1
R44
 50
50.0
  7
TXT
  0
LINE
  5
9A
  8
MAßLINIEN
 62
     3
 10
-113.3
 20
34.79999999999999
 30
0.0
 11
-113.3
 21
25.399999999999991
 31
0.0
  0
TEXT
  5
9B
  8
MAßLINIEN
 62
     3
 10
-114.5
 20
27.29999999999999
 30
0.0
 40
1.9999999999999989
  1
34.8
 50
90.0
  7
TXT
  0
LINE
  5
9C
  8
KONTUR
 62
     7
 10
-194.99999999999989
 20
70.0
 30
0.0
 11
-194.99999999999989
 21
0.0
 31
0.0
  0
LINE
  5
9D
  8
MAßLINIEN
 62
     3
 10
-93.299999999999983
 20
9.5
 30
0.0
 11
-99.299999999999983
 21
9.5
 31
0.0
  0
LINE
  5
9E
  8
MAßLINIEN
 62
     3
 10
-98.499999999999986
 20
9.5
 30
0.0
 11
-98.499999999999986
 21
4.299999999999998
 31
0.0
  0
LINE
  5
9F
  8
MAßLINIEN
 62
     3
 10
-98.499999999999986
 20
9.5
 30
0.0
 11
-98.700000000000003
 21
8.8999999999999986
 31
0.0
  0
LINE
  5
A0
  8
MAßLINIEN
 62
     3
 10
-98.499999999999986
 20
9.5
 30
0.0
 11
-98.299999999999983
 21
8.8999999999999986
 31
0.0
  0
TEXT
  5
A1
  8
MAßLINIEN
 62
     3
 10
-99.600009999999983
 20
4.6000000000000032
 30
0.0
 40
1.9999999999999989
  1
9.5
 50
90.0
  7
TXT
  0
TEXT
  5
A2
  8
MAßLINIEN
 62
     3
 10
-90.684209999999979
 20
14.62581
 30
0.0
 40
1.9999999999999989
  1
R18.3
 50
50.0
  7
TXT
  0
ARC
  5
A3
  8
KONTUR
 62
     7
 10
-193.5398999999999
 20
25.418039999999991
 30
0.0
 40
50.0
 50
31.360050000000001
 51
46.722439999999992
  0
LINE
  5
A4
  8
KONTUR
 62
     7
 10
-194.99999999999989
 20
70.0
 30
0.0
 11
-169.99999999999989
 21
70.0
 31
0.0
  0
LINE
  5
A5
  8
MAßLINIEN
 62
     3
 10
-188.0
 20
70.0
 30
0.0
 11
-188.0
 21
55.0
 31
0.0
  0
LINE
  5
A6
  8
MAßLINIEN
 62
     3
 10
-188.0
 20
70.0
 30
0.0
 11
-187.5
 21
68.0
 31
0.0
  0
LINE
  5
A7
  8
MAßLINIEN
 62
     3
 10
-188.0
 20
70.0
 30
0.0
 11
-188.49999999999989
 21
68.0
 31
0.0
  0
TEXT
  5
A8
  8
MAßLINIEN
 62
     3
 10
-189.49999999999989
 20
56.999999999999993
 30
0.0
 40
1.9999999999999989
  1
í140
 50
90.0
  7
TXT
  0
LINE
  5
A9
  8
MAßLINIEN
 62
     3
 10
-154.70119999999989
 20
56.86661999999999
 30
0.0
 11
-163.47149999999991
 21
48.251869999999997
 31
0.0
  0
LINE
  5
AA
  8
MAßLINIEN
 62
     3
 10
-177.0
 20
62.5
 30
0.0
 11
-177.0
 21
48.0
 31
0.0
  0
LINE
  5
AB
  8
KONTUR
 62
     7
 10
-169.99999999999989
 20
70.0
 30
0.0
 11
-169.99999999999989
 21
62.5
 31
0.0
  0
LINE
  5
AC
  8
KONTUR
 62
     7
 10
-169.99999999999989
 20
62.5
 30
0.0
 11
-160.97710000000001
 21
62.5
 31
0.0
  0
ARC
  5
AD
  8
KONTUR
 62
     7
 10
-160.97710000000001
 20
60.0
 30
0.0
 40
2.4999999999999991
 50
46.722439999999992
 51
90.0
  0
LINE
  5
AE
  8
MAßLINIEN
 62
     3
 10
-154.70119999999989
 20
56.86661999999999
 30
0.0
 11
-155.01730000000001
 21
56.390050000000002
 31
0.0
  0
LINE
  5
AF
  8
MAßLINIEN
 62
     3
 10
-154.74069999999989
 20
56.86661999999999
 30
0.0
 11
-155.17529999999991
 21
56.646659999999997
 31
0.0
  0
TEXT
  5
B0
  8
MAßLINIEN
 62
     3
 10
-161.65430000000001
 20
50.707990000000002
 30
0.0
 40
1.9999999999999989
  1
R50
 50
50.0
  7
TXT
  0
LINE
  5
B1
  8
MAßLINIEN
 62
     3
 10
-159.87649999999999
 20
62.310400000000001
 30
0.0
 11
-156.43950000000001
 21
68.835619999999992
 31
0.0
  0
LINE
  5
B2
  8
MAßLINIEN
 62
     3
 10
-159.83699999999999
 20
62.347059999999992
 30
0.0
 11
-159.20490000000001
 21
62.933599999999991
 31
0.0
  0
LINE
  5
B3
  8
MAßLINIEN
 62
     3
 10
-159.7974999999999
 20
63.226860000000002
 30
0.0
 11
-159.91599999999991
 21
62.457039999999992
 31
0.0
  0
TEXT
  5
B4
  8
MAßLINIEN
 62
     3
 10
-155.6493999999999
 20
63.630109999999974
 30
0.0
 40
1.9999999999999989
  1
R2.5
 50
70.0
  7
TXT
  0
LINE
  5
B5
  8
MAßLINIEN
 62
     3
 10
-169.99999999999989
 20
62.5
 30
0.0
 11
-180.0
 21
62.5
 31
0.0
  0
LINE
  5
B6
  8
MAßLINIEN
 62
     3
 10
-177.0
 20
62.5
 30
0.0
 11
-177.0
 21
61.0
 31
0.0
  0
LINE
  5
B7
  8
MAßLINIEN
 62
     3
 10
-177.0
 20
62.5
 30
0.0
 11
-176.5
 21
61.0
 31
0.0
  0
LINE
  5
B8
  8
MAßLINIEN
 62
     3
 10
-177.0
 20
62.5
 30
0.0
 11
-177.5
 21
61.0
 31
0.0
  0
TEXT
  5
B9
  8
MAßLINIEN
 62
     3
 10
-178.5
 20
50.5
 30
0.0
 40
1.9999999999999989
  1
í125
 50
90.0
  7
TXT
  0
LINE
  5
BA
  8
KONTUR
 62
     7
 10
-104.46169999999989
 20
44.190489999999997
 30
0.0
 11
-139.7175
 21
50.0
 31
0.0
  0
LINE
  5
BB
  8
MAßLINIEN
 62
     3
 10
-139.5
 20
50.0
 30
0.0
 11
-107.4999999999999
 21
50.0
 31
0.0
  0
TEXT
  5
BC
  8
MAßLINIEN
 62
     3
 10
-116.4591999999999
 20
51.978629999999981
 30
0.0
 40
1.9999999999999989
  1
10ø
 50
100.0
  7
TXT
  0
LINE
  5
BD
  8
KONTUR
 62
     7
 10
-148.2825
 20
50.0
 30
0.0
 11
-139.7175
 21
50.0
 31
0.0
  0
LINE
  5
BE
  8
MAßLINIEN
 62
     3
 10
-144.99999999999989
 20
50.0
 30
0.0
 11
-144.99999999999989
 21
38.0
 31
0.0
  0
LINE
  5
BF
  8
MAßLINIEN
 62
     3
 10
-144.99999999999989
 20
50.0
 30
0.0
 11
-144.49999999999989
 21
48.499999999999993
 31
0.0
  0
LINE
  5
C0
  8
MAßLINIEN
 62
     3
 10
-144.99999999999989
 20
50.0
 30
0.0
 11
-145.49999999999989
 21
48.499999999999993
 31
0.0
  0
TEXT
  5
C1
  8
MAßLINIEN
 62
     3
 10
-145.5
 20
38.999999999999993
 30
0.0
 40
1.9999999999999989
  1
í100
 50
90.0
  7
TXT
  0
ARC
  5
C2
  8
KONTUR
 62
     7
 10
-148.2825
 20
52.999999999999993
 30
0.0
 40
3.0
 50
211.36009999999999
 51
270.0
  0
LINE
  5
C3
  8
MAßLINIEN
 62
     3
 10
-149.6049999999999
 20
50.3414
 30
0.0
 11
-146.80000000000001
 21
54.850399999999993
 31
0.0
  0
LINE
  5
C4
  8
MAßLINIEN
 62
     3
 10
-149.4469
 20
50.92794
 30
0.0
 11
-149.64449999999991
 21
50.414720000000003
 31
0.0
  0
LINE
  5
C5
  8
MAßLINIEN
 62
     3
 10
-149.6049999999999
 20
50.414720000000003
 30
0.0
 11
-149.1704
 21
50.598010000000002
 31
0.0
  0
TEXT
  5
C6
  8
MAßLINIEN
 62
     3
 10
-148.97290000000001
 20
52.101009999999967
 30
0.0
 40
1.9999999999999989
  1
R3
 50
60.0
  7
TXT
  0
ARC
  5
C7
  8
MAßLINIEN
 62
     3
 10
-129.2245999999999
 20
50.377119999999991
 30
0.0
 40
13.852349999999991
 50
327.82179999999988
 51
17.315339999999988
  0
ARC
  5
C8
  8
KONTUR
 62
     7
 10
-105.90000000000001
 20
34.79999999999999
 30
0.0
 40
9.5
 50
30.649699999999999
 51
81.292140000000003
  0
LINE
  5
C9
  8
MAßLINIEN
 62
     3
 10
-105.90000000000001
 20
34.79999999999999
 30
0.0
 11
-114.39999999999991
 21
34.79999999999999
 31
0.0
  0
LINE
  5
CA
  8
MAßLINIEN
 62
     3
 10
-113.3
 20
34.79999999999999
 30
0.0
 11
-113.5
 21
34.29999999999999
 31
0.0
  0
LINE
  5
CB
  8
MAßLINIEN
 62
     3
 10
-113.3
 20
34.79999999999999
 30
0.0
 11
-113.09999999999999
 21
34.29999999999999
 31
0.0
  0
LINE
  5
CC
  8
MAßLINIEN
 62
     3
 10
-105.7876999999999
 20
34.67716999999999
 30
0.0
 11
-100.3236999999999
 21
42.24096999999999
 31
0.0
  0
LINE
  5
CD
  8
MAßLINIEN
 62
     3
 10
-100.26260000000001
 20
42.329120000000003
 30
0.0
 11
-100.4905999999999
 21
41.65912999999999
 31
0.0
  0
LINE
  5
CE
  8
MAßLINIEN
 62
     3
 10
-100.26260000000001
 20
42.329120000000003
 30
0.0
 11
-100.8325999999999
 21
42.011759999999988
 31
0.0
  0
TEXT
  5
CF
  8
MAßLINIEN
 62
     3
 10
-105.3168
 20
36.722389999999997
 30
0.0
 40
1.9999999999999989
  1
R9.5
 50
50.0
  7
TXT
  0
LINE
  5
D0
  8
MAßLINIEN
 62
     3
 10
-90.508160000000004
 20
32.152459999999998
 30
0.0
 11
-90.921530000000004
 21
31.145549999999989
 31
0.0
  0
LINE
  5
D1
  8
MAßLINIEN
 62
     3
 10
-90.921530000000004
 20
31.145549999999989
 30
0.0
 11
-90.094769999999997
 21
31.625029999999992
 31
0.0
  0
LINE
  5
D2
  8
MAßLINIEN
 62
     3
 10
-116.06310000000001
 20
46.064099999999989
 30
0.0
 11
-116.31179999999991
 21
45.807690000000001
 31
0.0
  0
LINE
  5
D3
  8
MAßLINIEN
 62
     3
 10
-116.0355
 20
46.064099999999989
 30
0.0
 11
-116.06310000000001
 21
45.73077
 31
0.0
  0
LINE
  5
D4
  8
MAßLINIEN
 62
     3
 10
-115.5380999999999
 20
50.320509999999992
 30
0.0
 11
-115.3998999999999
 21
50.038459999999993
 31
0.0
  0
LINE
  5
D5
  8
MAßLINIEN
 62
     3
 10
-115.3998999999999
 20
50.038459999999993
 30
0.0
 11
-115.2340999999999
 21
50.397429999999993
 31
0.0
  0
LINE
  5
D6
  8
KOORDINATENSYSTEM
  6
MITTE
 62
     5
 10
0.0
 20
-14.0
 30
0.0
 11
0.0
 21
99.0
 31
0.0
  0
LINE
  5
D7
  8
MAßLINIEN
 62
     3
 10
-16.499999999999989
 20
29.499999999999989
 30
0.0
 11
-12.999999999999989
 21
34.5
 31
0.0
  0
LINE
  5
D8
  8
MAßLINIEN
 62
     3
 10
-16.499999999999989
 20
30.5
 30
0.0
 11
-16.499999999999989
 21
29.499999999999989
 31
0.0
  0
TEXT
  5
D9
  8
MAßLINIEN
 62
     3
 10
-26.999999999999989
 20
30.5
 30
0.0
 40
1.9999999999999989
  1
R3
 50
119.9999999999999
  7
TXT
  0
ARC
  5
DA
  8
KONTUR
 62
     7
 10
-17.999999999999989
 20
26.999999999999989
 30
0.0
 40
3.0
 50
0.0
 51
90.0
  0
TEXT
  5
DB
  8
MAßLINIEN
 62
     3
 10
-40.333329999999982
 20
-11.999999999999989
 30
0.0
 40
1.9999999999999989
  1
75.0
  7
TXT
  0
LINE
  5
DC
  8
MAßLINIEN
 62
     3
 10
-75.0
 20
-8.9999999999999982
 30
0.0
 11
0.0
 21
-8.9999999999999982
 31
0.0
  0
LINE
  5
DD
  8
MAßLINIEN
 62
     3
 10
-75.0
 20
11.19999999999999
 30
0.0
 11
-75.0
 21
-9.9999999999999964
 31
0.0
  0
LINE
  5
DE
  8
MAßLINIEN
 62
     3
 10
0.0
 20
-9.8000000000000007
 30
0.0
 11
0.0
 21
-9.9999999999999982
 31
0.0
  0
LINE
  5
DF
  8
MAßLINIEN
 62
     3
 10
-73.400000000000006
 20
-9.2666599999999981
 30
0.0
 11
-75.0
 21
-8.9999999999999982
 31
0.0
  0
LINE
  5
E0
  8
MAßLINIEN
 62
     3
 10
-73.400000000000006
 20
-8.7333399999999983
 30
0.0
 11
-75.0
 21
-8.9999999999999982
 31
0.0
  0
LINE
  5
E1
  8
MAßLINIEN
 62
     3
 10
-1.599999999999999
 20
-9.2666599999999981
 30
0.0
 11
0.0
 21
-8.9999999999999982
 31
0.0
  0
LINE
  5
E2
  8
MAßLINIEN
 62
     3
 10
-1.599999999999999
 20
-8.7333399999999983
 30
0.0
 11
0.0
 21
-8.9999999999999982
 31
0.0
  0
TEXT
  5
E3
  8
MAßLINIEN
 62
     3
 10
-19.999999999999989
 20
15.73332999999999
 30
0.0
 40
1.9999999999999989
  1
1.2
 50
90.0
  7
TXT
  0
LINE
  5
E4
  8
MAßLINIEN
 62
     3
 10
-19.0
 20
16.800000000000001
 30
0.0
 11
-19.0
 21
13.599999999999991
 31
0.0
  0
LINE
  5
E5
  8
MAßLINIEN
 62
     3
 10
-19.0
 20
17.999999999999989
 30
0.0
 11
-19.0
 21
21.199999999999999
 31
0.0
  0
LINE
  5
E6
  8
MAßLINIEN
 62
     3
 10
-15.800000000000001
 20
16.800000000000001
 30
0.0
 11
-19.999999999999989
 21
16.800000000000001
 31
0.0
  0
LINE
  5
E7
  8
MAßLINIEN
 62
     3
 10
-15.800000000000001
 20
17.999999999999989
 30
0.0
 11
-19.999999999999989
 21
17.999999999999989
 31
0.0
  0
LINE
  5
E8
  8
MAßLINIEN
 62
     3
 10
-18.733339999999991
 20
15.19999999999999
 30
0.0
 11
-19.0
 21
16.800000000000001
 31
0.0
  0
LINE
  5
E9
  8
MAßLINIEN
 62
     3
 10
-19.266659999999991
 20
15.19999999999999
 30
0.0
 11
-19.0
 21
16.800000000000001
 31
0.0
  0
LINE
  5
EA
  8
MAßLINIEN
 62
     3
 10
-18.733339999999991
 20
19.600000000000001
 30
0.0
 11
-19.0
 21
17.999999999999989
 31
0.0
  0
LINE
  5
EB
  8
MAßLINIEN
 62
     3
 10
-19.266659999999991
 20
19.600000000000001
 30
0.0
 11
-19.0
 21
17.999999999999989
 31
0.0
  0
LINE
  5
EC
  8
KONTUR
 62
     7
 10
-25.660430000000002
 20
29.648839999999989
 30
0.0
 11
-57.472419999999993
 21
12.734109999999999
 31
0.0
  0
TEXT
  5
ED
  8
MAßLINIEN
 62
     3
 10
-41.485659999999982
 20
16.46837
 30
0.0
 40
1.9999999999999989
  1
28.0°
  7
TXT
  0
ARC
  5
EE
  8
MAßLINIEN
 62
     3
 10
-57.91270999999999
 20
12.5
 30
0.0
 40
20.537099999999992
 50
0.0
 51
8.9302829999999993
  0
ARC
  5
EF
  8
MAßLINIEN
 62
     3
 10
-57.91270999999999
 20
12.5
 30
0.0
 40
20.537099999999992
 50
19.06972
 51
28.0
  0
LINE
  5
F0
  8
MAßLINIEN
 62
     3
 10
-35.375609999999988
 20
12.5
 30
0.0
 11
-57.112709999999993
 21
12.5
 31
0.0
  0
LINE
  5
F1
  8
MAßLINIEN
 62
     3
 10
-37.7044
 20
14.0884
 30
0.0
 11
-37.375609999999988
 21
12.5
 31
0.0
  0
LINE
  5
F2
  8
MAßLINIEN
 62
     3
 10
-37.171479999999988
 20
14.109170000000001
 30
0.0
 11
-37.375609999999988
 21
12.5
 31
0.0
  0
LINE
  5
F3
  8
MAßLINIEN
 62
     3
 10
-39.324120000000001
 20
20.584749999999989
 30
0.0
 11
-39.779530000000001
 21
22.14157999999999
 31
0.0
  0
LINE
  5
F4
  8
MAßLINIEN
 62
     3
 10
-38.84382999999999
 20
20.816600000000001
 30
0.0
 11
-39.779530000000001
 21
22.14157999999999
 31
0.0
  0
LINE
  5
F5
  8
MAßLINIEN
 62
     3
 10
-67.5
 20
12.5
 30
0.0
 11
-67.5
 21
3.4999999999999991
 31
0.0
  0
TEXT
  5
F6
  8
MAßLINIEN
 62
     3
 10
-69.0
 20
4.0000000000000027
 30
0.0
 40
1.9999999999999989
  1
í25
 50
90.0
  7
TXT
  0
ARC
  5
F7
  8
KONTUR
 62
     7
 10
-74.419059999999988
 20
13.499999999999989
 30
0.0
 40
0.9999999999999998
 50
191.9615
 51
270.0
  0
ARC
  5
F8
  8
KONTUR
 62
     7
 10
-93.299999999999983
 20
9.5
 30
0.0
 40
18.300000000000001
 50
11.96147
 51
57.552009999999989
  0
LINE
  5
F9
  8
KONTUR
 62
     7
 10
-74.419059999999988
 20
12.5
 30
0.0
 11
-58.411369999999991
 21
12.5
 31
0.0
  0
ARC
  5
FA
  8
KONTUR
 62
     7
 10
-58.411369999999991
 20
14.5
 30
0.0
 40
1.9999999999999989
 50
270.0
 51
298.0
  0
LINE
  5
FB
  8
MAßLINIEN
 62
     3
 10
-67.5
 20
12.5
 30
0.0
 11
-66.999999999999986
 21
11.499999999999989
 31
0.0
  0
LINE
  5
FC
  8
MAßLINIEN
 62
     3
 10
-67.5
 20
12.5
 30
0.0
 11
-68.0
 21
11.499999999999989
 31
0.0
  0
LINE
  5
FD
  8
MAßLINIEN
 62
     3
 10
-74.912899999999993
 20
12.56905999999999
 30
0.0
 11
-69.115869999999987
 21
18.106479999999991
 31
0.0
  0
LINE
  5
FE
  8
MAßLINIEN
 62
     3
 10
-74.145639999999986
 20
13.99297
 30
0.0
 11
-74.827640000000002
 21
12.80637999999999
 31
0.0
  0
LINE
  5
FF
  8
MAßLINIEN
 62
     3
 10
-74.827640000000002
 20
12.80637999999999
 30
0.0
 11
-73.634140000000002
 21
13.28101
 31
0.0
  0
LINE
  5
100
  8
MAßLINIEN
 62
     3
 10
-60.761330000000001
 20
19.925909999999998
 30
0.0
 11
-57.862819999999992
 21
12.72726999999999
 31
0.0
  0
LINE
  5
101
  8
MAßLINIEN
 62
     3
 10
-57.862819999999992
 20
12.72726999999999
 30
0.0
 11
-57.948069999999987
 21
14.151179999999989
 31
0.0
  0
LINE
  5
102
  8
MAßLINIEN
 62
     3
 10
-57.862819999999992
 20
12.72726999999999
 30
0.0
 11
-58.630069999999989
 21
13.518330000000001
 31
0.0
  0
TEXT
  5
103
  8
MAßLINIEN
 62
     3
 10
-59.141579999999998
 20
19.846810000000001
 30
0.0
 40
1.9999999999999989
  1
R2
 50
290.0
  7
TXT
  0
TEXT
  5
104
  8
MAßLINIEN
 62
     3
 10
-73.54889
 20
15.416869999999991
 30
0.0
 40
1.9999999999999989
  1
R1
 50
50.0
  7
TXT
  0
LINE
  5
105
  8
MAßLINIEN
 62
     3
 10
-80.795169999999985
 20
22.69462
 30
0.0
 11
-81.477169999999987
 21
21.587139999999991
 31
0.0
  0
LINE
  5
106
  8
MAßLINIEN
 62
     3
 10
-80.795169999999985
 20
22.77372999999999
 30
0.0
 11
-81.73293000000001
 21
22.140879999999989
 31
0.0
  0
LINE
  5
107
  8
KONTUR
 62
     7
 10
-17.999999999999989
 20
30.0
 30
0.0
 11
-24.252020000000002
 21
30.0
 31
0.0
  0
ARC
  5
108
  8
KONTUR
 62
     7
 10
-24.252020000000002
 20
26.999999999999989
 30
0.0
 40
3.0
 50
90.0
 51
118.0
  0
LINE
  5
109
  8
MAßLINIEN
 62
     3
 10
-22.5
 20
30.0
 30
0.0
 11
-22.5
 21
23.5
 31
0.0
  0
LINE
  5
10A
  8
MAßLINIEN
 62
     3
 10
-22.5
 20
30.0
 30
0.0
 11
-22.0
 21
29.0
 31
0.0
  0
LINE
  5
10B
  8
MAßLINIEN
 62
     3
 10
-22.5
 20
30.0
 30
0.0
 11
-22.999999999999989
 21
29.0
 31
0.0
  0
TEXT
  5
10C
  8
MAßLINIEN
 62
     3
 10
-23.5
 20
23.499999999999989
 30
0.0
 40
1.9999999999999989
  1
í60
 50
90.0
  7
TXT
  0
TEXT
  5
10E
  8
TEXT
  6
MITTE
 62
     7
 10
9.6826801171876689
 20
-35.073344919699672
 30
0.0
 40
1.9999999999999989
  1
Beispiel.dxf
 41
1.55
  7
ARIAL
  0
LINE
  5
10F
  8
KONTUR
 62
     7
 10
0.0
 20
0.0
 30
0.0
 11
0.0
 21
15.999999999999989
 31
0.0
  0
LINE
  5
110
  8
UMLAUFKANTEN
 62
     7
 10
-15.0
 20
17.199999999999989
 30
0.0
 11
-15.0
 21
0.0
 31
0.0
  0
LINE
  5
111
  8
UMLAUFKANTEN
 62
     7
 10
-12.0
 20
16.800000000000001
 30
0.0
 11
-12.0
 21
0.0
 31
0.0
  0
LINE
  5
112
  8
UMLAUFKANTEN
 62
     7
 10
-1.9999999999999989
 20
17.999999999999989
 30
0.0
 11
-1.9999999999999989
 21
0.0
 31
0.0
  0
TEXT
  5
113
  8
MAßLINIEN
 62
     3
 10
9.5
 20
1.9999999999999989
 30
0.0
 40
1.9999999999999989
  1
M 36x1,5
 50
90.0
  7
TXT
  0
LINE
  5
114
  8
MAßLINIEN
 62
     3
 10
10.499999999999989
 20
17.999999999999989
 30
0.0
 11
10.499999999999989
 21
0.4999999999999991
 31
0.0
  0
TEXT
  5
115
  8
MAßLINIEN
 62
     3
 10
-9.9999999999999964
 20
-4.9999999999999991
 30
0.0
 40
1.9999999999999989
  1
15.0
  7
TXT
  0
LINE
  5
116
  8
MAßLINIEN
 62
     3
 10
-15.0
 20
-1.9999999999999989
 30
0.0
 11
0.0
 21
-1.9999999999999989
 31
0.0
  0
LINE
  5
117
  8
MAßLINIEN
 62
     3
 10
-15.0
 20
-0.8
 30
0.0
 11
-15.0
 21
-3.0
 31
0.0
  0
LINE
  5
118
  8
MAßLINIEN
 62
     3
 10
0.0
 20
-2.7999999999999989
 30
0.0
 11
0.0
 21
-3.0
 31
0.0
  0
LINE
  5
119
  8
MAßLINIEN
 62
     3
 10
-13.4
 20
-2.266659999999999
 30
0.0
 11
-15.0
 21
-1.9999999999999989
 31
0.0
  0
LINE
  5
11A
  8
MAßLINIEN
 62
     3
 10
-13.4
 20
-1.7333400000000001
 30
0.0
 11
-15.0
 21
-1.9999999999999989
 31
0.0
  0
LINE
  5
11B
  8
MAßLINIEN
 62
     3
 10
-1.599999999999999
 20
-2.266659999999999
 30
0.0
 11
0.0
 21
-1.9999999999999989
 31
0.0
  0
LINE
  5
11C
  8
MAßLINIEN
 62
     3
 10
-1.599999999999999
 20
-1.7333400000000001
 30
0.0
 11
0.0
 21
-1.9999999999999989
 31
0.0
  0
TEXT
  5
11D
  8
MAßLINIEN
 62
     3
 10
-14.33333
 20
28.0
 30
0.0
 40
1.9999999999999989
  1
5.0
  7
TXT
  0
LINE
  5
11E
  8
MAßLINIEN
 62
     3
 10
-15.0
 20
26.999999999999989
 30
0.0
 11
-9.9999999999999982
 21
26.999999999999989
 31
0.0
  0
LINE
  5
11F
  8
MAßLINIEN
 62
     3
 10
-15.0
 20
27.800000000000001
 30
0.0
 11
-15.0
 21
28.0
 31
0.0
  0
LINE
  5
120
  8
MAßLINIEN
 62
     3
 10
-9.9999999999999982
 20
18.800000000000001
 30
0.0
 11
-9.9999999999999982
 21
28.0
 31
0.0
  0
LINE
  5
121
  8
MAßLINIEN
 62
     3
 10
-13.4
 20
26.733339999999998
 30
0.0
 11
-15.0
 21
26.999999999999989
 31
0.0
  0
LINE
  5
122
  8
MAßLINIEN
 62
     3
 10
-13.4
 20
27.266659999999991
 30
0.0
 11
-15.0
 21
26.999999999999989
 31
0.0
  0
LINE
  5
123
  8
MAßLINIEN
 62
     3
 10
-11.599999999999991
 20
26.733339999999998
 30
0.0
 11
-9.9999999999999982
 21
26.999999999999989
 31
0.0
  0
LINE
  5
124
  8
MAßLINIEN
 62
     3
 10
-11.599999999999991
 20
27.266659999999991
 30
0.0
 11
-9.9999999999999982
 21
26.999999999999989
 31
0.0
  0
LINE
  5
125
  8
KONTUR
 62
     7
 10
-1.9999999999999989
 20
17.999999999999989
 30
0.0
 11
0.0
 21
15.999999999999989
 31
0.0
  0
TEXT
  5
126
  8
MAßLINIEN
 62
     3
 10
-2.8333329999999979
 20
25.999999999999989
 30
0.0
 40
1.9999999999999989
  1
2.0
  7
TXT
  0
LINE
  5
127
  8
MAßLINIEN
 62
     3
 10
-1.9999999999999989
 20
25.0
 30
0.0
 11
-5.1999999999999993
 21
25.0
 31
0.0
  0
LINE
  5
128
  8
MAßLINIEN
 62
     3
 10
0.0
 20
25.0
 30
0.0
 11
3.1999999999999988
 21
25.0
 31
0.0
  0
LINE
  5
129
  8
MAßLINIEN
 62
     3
 10
-1.9999999999999989
 20
18.800000000000001
 30
0.0
 11
-1.9999999999999989
 21
25.999999999999989
 31
0.0
  0
LINE
  5
12A
  8
MAßLINIEN
 62
     3
 10
0.0
 20
25.800000000000001
 30
0.0
 11
0.0
 21
25.999999999999989
 31
0.0
  0
LINE
  5
12B
  8
MAßLINIEN
 62
     3
 10
-3.5999999999999992
 20
24.733339999999991
 30
0.0
 11
-1.9999999999999989
 21
25.0
 31
0.0
  0
LINE
  5
12C
  8
MAßLINIEN
 62
     3
 10
-3.5999999999999992
 20
25.266660000000002
 30
0.0
 11
-1.9999999999999989
 21
25.0
 31
0.0
  0
LINE
  5
12D
  8
MAßLINIEN
 62
     3
 10
1.599999999999999
 20
24.733339999999991
 30
0.0
 11
0.0
 21
25.0
 31
0.0
  0
LINE
  5
12E
  8
MAßLINIEN
 62
     3
 10
1.599999999999999
 20
25.266660000000002
 30
0.0
 11
0.0
 21
25.0
 31
0.0
  0
ARC
  5
12F
  8
KONTUR
 62
     7
 10
-12.18563999999999
 20
17.199999999999989
 30
0.0
 40
0.4
 50
270.0
 51
300.0
  0
LINE
  5
130
  8
KONTUR
 62
     7
 10
-9.9999999999999982
 20
17.999999999999989
 30
0.0
 11
-11.985639999999989
 21
16.853590000000001
 31
0.0
  0
LINE
  5
131
  8
KONTUR
 62
     7
 10
-1.9999999999999989
 20
17.999999999999989
 30
0.0
 11
-9.9999999999999982
 21
17.999999999999989
 31
0.0
  0
LINE
  5
132
  8
KONTUR
 62
     7
 10
-15.0
 20
17.399999999999991
 30
0.0
 11
-15.0
 21
26.999999999999989
 31
0.0
  0
LINE
  5
133
  8
KONTUR
 62
     7
 10
-14.39999999999999
 20
16.800000000000001
 30
0.0
 11
-12.18563999999999
 21
16.800000000000001
 31
0.0
  0
ARC
  5
134
  8
KONTUR
 62
     7
 10
-14.39999999999999
 20
17.399999999999991
 30
0.0
 40
0.6
 50
180.0
 51
270.0
  0
LINE
  5
135
  8
MAßLINIEN
 62
     3
 10
-16.499999999999989
 20
29.499999999999989
 30
0.0
 11
-15.5
 21
30.0
 31
0.0
  0
LINE
  5
136
  8
MAßLINIEN
 62
     3
 10
0.0
 20
17.999999999999989
 30
0.0
 11
12.0
 21
17.999999999999989
 31
0.0
  0
LINE
  5
137
  8
MAßLINIEN
 62
     3
 10
9.9999999999999982
 20
17.0
 30
0.0
 11
10.499999999999989
 21
17.999999999999989
 31
0.0
  0
LINE
  5
138
  8
MAßLINIEN
 62
     3
 10
10.499999999999989
 20
17.999999999999989
 30
0.0
 11
11.0
 21
17.0
 31
0.0
  0
LINE
  5
139
  8
UMLAUFKANTEN
 62
     7
 10
-11.36656
 20
17.162379999999992
 30
0.0
 11
-1.180064
 21
17.162379999999992
 31
0.0
  0
LINE
  5
13A
  8
KOORDINATENSYSTEM
 62
     5
 10
30.0
 20
0.0
 30
0.0
 11
19.999999999999989
 21
-4.9999999999999991
 31
0.0
  0
LINE
  5
13B
  8
KOORDINATENSYSTEM
 62
     5
 10
30.0
 20
0.0
 30
0.0
 11
19.999999999999989
 21
4.9999999999999991
 31
0.0
  0
LINE
  5
13C
  8
KOORDINATENSYSTEM
  6
MITTE
 62
     5
 10
26.999999999999989
 20
0.0
 30
0.0
 11
30.0
 21
0.0
 31
0.0
  0
TEXT
  5
13D
  8
MAßLINIEN
 62
     3
 10
-15.333329999999989
 20
45.0
 30
0.0
 40
1.9999999999999989
  1
25.0
  7
TXT
  0
LINE
  5
13E
  8
MAßLINIEN
 62
     3
 10
-25.0
 20
44.0
 30
0.0
 11
0.0
 21
44.0
 31
0.0
  0
LINE
  5
13F
  8
MAßLINIEN
 62
     3
 10
-25.0
 20
30.800000000000001
 30
0.0
 11
-25.0
 21
45.0
 31
0.0
  0
LINE
  5
140
  8
MAßLINIEN
 62
     3
 10
0.0
 20
44.79999999999999
 30
0.0
 11
0.0
 21
45.0
 31
0.0
  0
LINE
  5
141
  8
MAßLINIEN
 62
     3
 10
-23.399999999999991
 20
43.733339999999991
 30
0.0
 11
-25.0
 21
44.0
 31
0.0
  0
LINE
  5
142
  8
MAßLINIEN
 62
     3
 10
-23.399999999999991
 20
44.266659999999987
 30
0.0
 11
-25.0
 21
44.0
 31
0.0
  0
LINE
  5
143
  8
MAßLINIEN
 62
     3
 10
-1.599999999999999
 20
43.733339999999991
 30
0.0
 11
0.0
 21
44.0
 31
0.0
  0
LINE
  5
144
  8
MAßLINIEN
 62
     3
 10
-1.599999999999999
 20
44.266659999999987
 30
0.0
 11
0.0
 21
44.0
 31
0.0
  0
TEXT
  5
145
  8
MAßLINIEN
 62
     3
 10
-16.0
 20
31.999999999999989
 30
0.0
 40
1.9999999999999989
  1
R3
 50
60.0
  7
TXT
  0
LINE
  5
146
  8
MAßLINIEN
 62
     3
 10
-25.0
 20
30.0
 30
0.0
 11
-28.0
 21
34.5
 31
0.0
  0
LINE
  5
147
  8
MAßLINIEN
 62
     3
 10
-25.0
 20
30.0
 30
0.0
 11
-25.0
 21
31.0
 31
0.0
  0
LINE
  5
148
  8
MAßLINIEN
 62
     3
 10
-25.999999999999989
 20
30.5
 30
0.0
 11
-25.0
 21
30.0
 31
0.0
  0
LINE
  5
149
  8
MAßLINIEN
 62
     3
 10
-25.17042
 20
31.025500000000001
 30
0.0
 11
-25.006429999999991
 21
30.011050000000001
 31
0.0
  0
LINE
  5
14A
  8
KOORDINATENSYSTEM
 62
     5
 10
0.0
 20
100.0
 30
0.0
 11
-4.9999999999999991
 21
90.0
 31
0.0
  0
LINE
  5
14B
  8
KOORDINATENSYSTEM
 62
     5
 10
0.0
 20
100.0
 30
0.0
 11
4.9999999999999991
 21
90.0
 31
0.0
  0
TEXT
  5
14C
  8
TEXT
  6
CONTINUOUS
 62
     7
 10
-193.13901004895311
 20
106.3277636181929
 30
0.0
 40
2.077852214409182
  1
Layer
 41
2.1000515150320278
  7
ARIAL
  0
TEXT
  5
14D
  8
TEXT
  6
CONTINUOUS
 62
     7
 10
-193.13901004895311
 20
103.2109852965792
 30
0.0
 40
2.077852214409182
  1
=====================
 41
2.1000515150320278
  7
ARIAL
  0
TEXT
  5
14E
  8
TEXT
  6
CONTINUOUS
 62
     7
 10
-193.13901004895311
 20
100.0942069749654
 30
0.0
 40
2.077852214409182
  1
Text^I
 41
2.1000515150320278
  7
ARIAL
  0
TEXT
  5
14F
  8
TEXT
  6
CONTINUOUS
 62
     7
 10
-193.13901004895311
 20
96.977428653351666
 30
0.0
 40
2.077852214409182
  1
Kontur
 41
2.1000515150320278
  7
ARIAL
  0
TEXT
  5
150
  8
TEXT
  6
CONTINUOUS
 62
     7
 10
-193.13901004895311
 20
93.860650331737887
 30
0.0
 40
2.077852214409182
  1
Koordinatensystem
 41
2.1000515150320278
  7
ARIAL
  0
TEXT
  5
151
  8
TEXT
  6
CONTINUOUS
 62
     7
 10
-193.13901004895311
 20
90.743872010124107
 30
0.0
 40
2.077852214409182
  1
Maßlinien
 41
2.1000515150320278
  7
ARIAL
  0
TEXT
  5
152
  8
TEXT
  6
CONTINUOUS
 62
     7
 10
-193.13901004895311
 20
87.627093688510314
 30
0.0
 40
2.077852214409182
  1
Umlaufkanten
 41
2.1000515150320278
  7
ARIAL
  0
ENDSEC
  0
EOF
